bass_en_it89 (bass_en_it89) wrote in sonofabiscuit,
bass_en_it89
bass_en_it89
sonofabiscuit

  • Mood:
  • Music:

Sailing On as performed by Son of a Biscut- Rhythm Bass Tabs

Intro 10's are 10's ( Intro doubles as the Verse)
E--777777710101010101010---------------------
A-----------------------777777710101010101010
D--------------------------------------------
G--------------------------------------------

E--777777710101010101010---------------------------------
A-----------------------777777710101010101010--10--101010
D--------------------------------------------------------
G--------------------------------------------------------

Refrain: sry this isnt exact there are more strumms i impro most of it from the rythm and its too hard to write all the exactly times down.
E----5----5--------5-----5-----------------------
A--5------------5--------------------------------
D------5--------------5--------------------------
G------------------------------------------------

Song Progression:
Intro x 1
Refrain x 7
Verse x 5 (use root notes and impro)
Refrain x 7
Verse x 5 (use root notes and impro)
  • Post a new comment

    Error

    default userpic
  • 0 comments